You are here: Home arrow CCR Guitar Tabs arrow Down On The Corner
Down On The Corner
CCR - "Down On The Corner"

Words/Music By : John Fogerty
--------------------------------------------
Tabbed By: Jaakko Pimperi (
 This e-mail address is being protected from spam bots, you need JavaScript enabled to view it
 )
27.5.1999 V1.0

Chords: E    e 
C       x32010
F       133211
G       320001

Intro/Riff A: (Bass doubles)
------------
4/4 C                           G           C
e-|--------------------------|-------------------------|---------------------|
B-|--------------------------|-------------------------|---------------------|
G-|--------------------------|-------------------------|---------------------|
D-|--------------------------|-------------------------|---------------------|
A-|-3---0-------3----3----0--|-----------2--3----3-----|--3---0------3--3--0-|
E-|----------3---------------|-3----3------------------|----------3----------|

    G                 C             F                           C
e-|------------------------------|---------------------------|----------------|
B-|------------------------------|---------------------------|----------------|
G-|------------------------------|---------------------------|------------0--0|
D-|------------------------------|--3----0---------3----3----|---------2------|
A-|---------------2---3-----3----|------------3------------0-|--3--3----------|
E-|-3------3---------------------|---------------------------|----------------|

                                 G         C   (end Riff A)
e-|---------------------------|----------------------|
B-|---------------------------|----------------------|
G-|---------------------------|----------------------|
D-|---------------------------|----------------------|
A-|--3--0-------3----3-----0--|------------2--3----3-|
E-|----------3----------------|--3----3--------------|

Verse 1: (w/ riff A)
-------
C                       G                C
Early in the evenin'   ......
         G              C    F                         C

                               G               C


Chorus:
-------
F           C        G               C                      F            C
Down on the corner,  ......
          G               C
bring a nickel,  ......

Verse2:(w/riff A)
------

[Play Riff A once]

[Repeat Chorus]

Verse3:(w/Riff A)
------

[Repeat Chorus and fade]

Questions, comments, corrections, requests etc. to 
 This e-mail address is being protected from spam bots, you need JavaScript enabled to view it