You are here: Home arrow CCR Guitar Tabs arrow Lookin' Out My Back Door
Lookin' Out My Back Door

Lookin Out My Back Door guitar tab

CCR - "Lookin' Out My Back Door"

Words/Music By : John Fogerty
--------------------------------------------
Tabbed By: Jaakko Pimperi (
 This e-mail address is being protected from spam bots, you need JavaScript enabled to view it
 )
27.5.1999 V1.0

Chords: E    e 
Bb      x13331
Gm      355333
Eb      x68886
F       133211
G       320003
C       x32010
Am      x02210

Intro:
------
     Bb                                    Gm
e-|--------------------|-----------------|------------------|----------------|
B-|--------3-------3---|-----3-------3---|------3--------3--|-----3-------3--|
G-|--------3-------3---|-----3-------3---|------3--------3--|-----3-------3--|
D-|--------3-------3---|-----3-------3---|------5--------5--|-----5-------5--|
A-|----1---------------|-1---------------|-----------5------|---------5------|
E-|-(Rhy. Gtr)-1-------|---------1-------|--3---------------|-3--------------|

                       Bb
    Eb (Rhy. Gtr cont. sim.)                F               Bb
e-|---3-------3----|--1------------------|----------------|----------|
B-|----------------|----------3--1-------|--3----3-----1--|----------|
G-|----------------|-----------------3---|----------------|-3--------|
D-|----------------|---------------------|----------------|----------|
A-|----------------|---------------------|----------------|----------|
E-|-(slide gtr.)---|---------------------|----------------|----------|

Verse1:
------
Bb                          Gm
Just got home .....
Eb         Bb          F
Got to set .....
Bb                  Gm
Imagination ....
Eb      Bb          F           Bb
Doo doo doo looking out my back door

Verse2:
------

Chorus:
------
F                             Eb               Bb
Tambourines .....
                      Gm              F
Won't you ......
Bb                       Gm
Wondrous ......
Eb      Bb          F           Bb
Doo doo doo looking out my back door

Guitar solo:
-----------
     Bb                                   Gm
e-|--------------------|---------------|-------------------|---------------|
B-|--------------------|---------------|-----------1-----1-|/3---6---3\1---|
G-|------------------0-|-(0)-----------|--3-----3------3---|-------------3-|
D-|--3-----3--3---3----|-----3---0---3-|-------------------|---------------|
A-|--------------------|---------------|-------------------|---------------|
E-|--------------------|---------------|-------------------|---------------|

     Eb              Bb              F
e-|---------------|---------------|-------1------------|-------------------|
B-|--4----/8------|--6----\3------|--1----------1------|------1---1--------|
G-|--3----/8------|--7----\3------|--2-----------------|-------------------|
D-|--5----/8------|--8----\3------|--3--------------3--|-(3)---------------|
A-|---------------|---------------|--------------------|-------------------|
E-|---------------|---------------|--------------------|-------------------|

     Bb                                   Gm
e-|--------------------|---------------|-------------------|---------------|
B-|--------------------|---------------|-----------1-----1-|/3---6---3\1---|
G-|------------------0-|-(0)-----------|--3-----3------3---|-------------3-|
D-|--3-----3--3---3----|-----3---0---3-|-------------------|---------------|
A-|--------------------|---------------|-------------------|---------------|
E-|--------------------|---------------|-------------------|---------------|

     Eb              Bb              F                      Bb
e-|----------------|----------------|-------1------------|-------------------|
B-|--4-----/8------|--6-----\3------|--1------------1----|--3----------------|
G-|--3-----/8------|--7-----\3------|--2-----------------|--3----------------|
D-|--5-----/8------|--8-----\3------|--3-----------------|--3----------------|
A-|----------------|----------------|--------------------|-------------------|
E-|----------------|----------------|--------------------|-------------------|

Chorus:
------

Break:
-----
     Bb                                               G
e-||--------(repeat 2 times)---||-------------------|-----3--------|
B-||--3------------------------||-------------------|------------5-|
G-||:-3--x-x---x-x---x-x---x--:||-------------------|-4------------|
D-||:-3--x-x---x-x---x-x---x--:||-------------------|--------------|
A-||--1--x-x---x-x---x-x---x---||-------1---0-------|--------------|
E-||-----x-x---x-x---x-x---x---||----------------4--|--------------|

                       F                  C
e-|---------3--------|-1----------------|-0-------------|----------------|
B-|-(5)-3---------3--|-------3----1-----|-1----------1--|----------------|
G-|------------------|------------------|-0------0------|----------------|
D-|------------------|------------------|---------------|-------0-2------|
A-|------------------|------------------|---------------|-3--3-----------|
E-|------------------|------------------|---------------|----------------|

    Am               G                   C    G
e-|---------------|------3-----0--|------0----------|
B-|----------1----|--0------------|--3---1----3-----|
G-|-0--0--2-------|---------------|--0---0----0-----|
D-|---------------|---------------|-----------------|
A-|---------------|---------------|-----------------|
E-|---------------|---------------|-----------------|

Verse3:
------
C                           Am

F               C               G


C                   Am

F    C              G           C  G  C
doo doo doo lookin out my back door.

Outro:
-----
                                F             C            G           C  G  C
e-||------------------------||--5-----5-----|-3----0----|--0---0------|-----|
B-||--x--x-x--x-x--x--x--x--||--------------|---------1-|----------3--|1----|
G-||:-x--x-x--x-x--x--x--x-:||--------------|-----------|-------------|-----|
D-||:-x--x-x--x-x--x--x--x-:||--------------|-----------|-------------|-----|
A-||--x--x-x--x-x--x--x--x--||--------------|-----------|-------------|-----|
E-||------------------------||-(slide gtr.)-|-----------|-------------|-----|

Questions, comments, corrections, requests etc. to 
 This e-mail address is being protected from spam bots, you need JavaScript enabled to view it